ISO-10303-21;
HEADER;
FILE_DESCRIPTION (( 'STEP AP203' ),
    '1' );
FILE_NAME ('QB-CTZQWP-10-1550-M.STEP',
    '2020-12-24T01:48:21',
    ( '' ),
    ( '' ),
    'SwSTEP 2.0',
    'SolidWorks 2020',
    '' );
FILE_SCHEMA (( 'CONFIG_CONTROL_DESIGN' ));
ENDSEC;

DATA;
#1 = DIRECTION ( 'NONE',  ( -1.000000000000000000, -0.000000000000000000, -0.000000000000000000 ) ) ;
#2 = ORIENTED_EDGE ( 'NONE', *, *, #76, .T. ) ;
#3 = CARTESIAN_POINT ( 'NONE',  ( 1.250000000000000444, 0.000000000000000000, 5.000000000000000000 ) ) ;
#4 = DIRECTION ( 'NONE',  ( -1.000000000000000000, -0.000000000000000000, -0.000000000000000000 ) ) ;
#5 = AXIS2_PLACEMENT_3D ( 'NONE', #254, #13, #92 ) ;
#6 = DIRECTION ( 'NONE',  ( -1.000000000000000000, -0.000000000000000000, -0.000000000000000000 ) ) ;
#7 = FACE_OUTER_BOUND ( 'NONE', #180, .T. ) ;
#8 = CARTESIAN_POINT ( 'NONE',  ( 3.000000000000000000, 0.000000000000000000, 0.000000000000000000 ) ) ;
#9 = CARTESIAN_POINT ( 'NONE',  ( -1.250000000000000222, 6.123233995736767268E-16, -5.000000000000000888 ) ) ;
#10 = CARTESIAN_POINT ( 'NONE',  ( 3.000000000000000000, 0.000000000000000000, 12.69999999999999929 ) ) ;
#11 = PERSON_AND_ORGANIZATION_ROLE ( 'design_supplier' ) ;
#12 = AXIS2_PLACEMENT_3D ( 'NONE', #144, #121, #119 ) ;
#13 = DIRECTION ( 'NONE',  ( 0.000000000000000000, 0.000000000000000000, 1.000000000000000000 ) ) ;
#14 = DIRECTION ( 'NONE',  ( 1.000000000000000000, 0.000000000000000000, 0.000000000000000000 ) ) ;
#15 = DIRECTION ( 'NONE',  ( 0.000000000000000000, 0.000000000000000000, 1.000000000000000000 ) ) ;
#16 =( LENGTH_UNIT ( ) NAMED_UNIT ( * ) SI_UNIT ( .MILLI., .METRE. ) );
#17 = VERTEX_POINT ( 'NONE', #159 ) ;
#18 = CALENDAR_DATE ( 2020, 24, 12 ) ;
#19 = EDGE_CURVE ( 'NONE', #178, #228, #195, .T. ) ;
#20 = VECTOR ( 'NONE', #24, 1000.000000000000000 ) ;
#21 = ORIENTED_EDGE ( 'NONE', *, *, #232, .F. ) ;
#22 = ORIENTED_EDGE ( 'NONE', *, *, #163, .F. ) ;
#23 = EDGE_LOOP ( 'NONE', ( #22, #256, #59, #233 ) ) ;
#24 = DIRECTION ( 'NONE',  ( -1.000000000000000000, -0.000000000000000000, -0.000000000000000000 ) ) ;
#25 = CARTESIAN_POINT ( 'NONE',  ( -1.614212418857619014, 6.123233995736767268E-16, -5.000000000000000888 ) ) ;
#26 = EDGE_LOOP ( 'NONE', ( #154, #277 ) ) ;
#27 = DIRECTION ( 'NONE',  ( -1.000000000000000000, -0.000000000000000000, -0.000000000000000000 ) ) ;
#28 = DIRECTION ( 'NONE',  ( -1.000000000000000000, -0.000000000000000000, -0.000000000000000000 ) ) ;
#29 = APPROVAL ( #167, 'UNSPECIFIED' ) ;
#30 = CARTESIAN_POINT ( 'NONE',  ( -1.614212418857619014, 0.000000000000000000, 0.000000000000000000 ) ) ;
#31 = CIRCLE ( 'NONE', #310, 5.000000000000001776 ) ;
#32 = ADVANCED_FACE ( 'NONE', ( #260 ), #186, .T. ) ;
#33 = CYLINDRICAL_SURFACE ( 'NONE', #274, 12.69999999999999929 ) ;
#34 = DIRECTION ( 'NONE',  ( 0.000000000000000000, 0.000000000000000000, 1.000000000000000000 ) ) ;
#35 = DIRECTION ( 'NONE',  ( -1.000000000000000000, 0.000000000000000000, -0.000000000000000000 ) ) ;
#36 = ORIENTED_EDGE ( 'NONE', *, *, #271, .T. ) ;
#37 = LINE ( 'NONE', #142, #176 ) ;
#38 = CALENDAR_DATE ( 2020, 24, 12 ) ;
#39 = CARTESIAN_POINT ( 'NONE',  ( -3.000000000000000000, 0.000000000000000000, 12.69999999999999929 ) ) ;
#40 = PERSON_AND_ORGANIZATION_ROLE ( 'creator' ) ;
#41 = AXIS2_PLACEMENT_3D ( 'NONE', #129, #245, #293 ) ;
#42 = CARTESIAN_POINT ( 'NONE',  ( 3.000000000000000000, 6.123233995736768255E-16, -5.000000000000001776 ) ) ;
#43 = DIRECTION ( 'NONE',  ( 0.000000000000000000, 0.000000000000000000, -1.000000000000000000 ) ) ;
#44 = DATE_AND_TIME ( #120, #214 ) ;
#45 = CC_DESIGN_APPROVAL ( #29, ( #330 ) ) ;
#46 = VERTEX_POINT ( 'NONE', #236 ) ;
#47 = CC_DESIGN_PERSON_AND_ORGANIZATION_ASSIGNMENT ( #325, #11, ( #117 ) ) ;
#48 = ORIENTED_EDGE ( 'NONE', *, *, #204, .F. ) ;
#49 = ORIENTED_EDGE ( 'NONE', *, *, #76, .F. ) ;
#50 = CARTESIAN_POINT ( 'NONE',  ( -1.614212418857619014, 0.000000000000000000, 0.000000000000000000 ) ) ;
#51 = EDGE_CURVE ( 'NONE', #206, #217, #218, .T. ) ;
#52 = FACE_OUTER_BOUND ( 'NONE', #123, .T. ) ;
#53 = FACE_BOUND ( 'NONE', #238, .T. ) ;
#54 = DIRECTION ( 'NONE',  ( -0.000000000000000000, 0.000000000000000000, 1.000000000000000000 ) ) ;
#55 = DIRECTION ( 'NONE',  ( -1.000000000000000000, -0.000000000000000000, -0.000000000000000000 ) ) ;
#56 = DIRECTION ( 'NONE',  ( 0.000000000000000000, 0.000000000000000000, 1.000000000000000000 ) ) ;
#57 = CIRCLE ( 'NONE', #328, 5.000000000000000000 ) ;
#58 = DIRECTION ( 'NONE',  ( 0.000000000000000000, 0.000000000000000000, 1.000000000000000000 ) ) ;
#59 = ORIENTED_EDGE ( 'NONE', *, *, #258, .T. ) ;
#60 = CARTESIAN_POINT ( 'NONE',  ( -1.250000000000000222, 0.000000000000000000, 0.000000000000000000 ) ) ;
#61 = MECHANICAL_CONTEXT ( 'NONE', #166, 'mechanical' ) ;
#62 = APPROVAL_ROLE ( '' ) ;
#63 = CARTESIAN_POINT ( 'NONE',  ( -3.000000000000000000, 0.000000000000000000, 0.000000000000000000 ) ) ;
#64 = DATE_TIME_ROLE ( 'creation_date' ) ;
#65 = APPROVAL_PERSON_ORGANIZATION ( #173, #29, #270 ) ;
#66 = PERSON_AND_ORGANIZATION ( #172, #199 ) ;
#67 = COORDINATED_UNIVERSAL_TIME_OFFSET ( 8, 0, .AHEAD. ) ;
#68 = EDGE_CURVE ( 'NONE', #312, #101, #272, .T. ) ;
#69 = ORIENTED_EDGE ( 'NONE', *, *, #51, .F. ) ;
#70 = DATE_AND_TIME ( #38, #231 ) ;
#71 = VECTOR ( 'NONE', #192, 1000.000000000000000 ) ;
#72 = ORIENTED_EDGE ( 'NONE', *, *, #197, .T. ) ;
#73 = CC_DESIGN_SECURITY_CLASSIFICATION ( #145, ( #117 ) ) ;
#74 = CC_DESIGN_PERSON_AND_ORGANIZATION_ASSIGNMENT ( #221, #40, ( #330 ) ) ;
#75 = ORIENTED_EDGE ( 'NONE', *, *, #85, .F. ) ;
#76 = EDGE_CURVE ( 'NONE', #17, #101, #307, .T. ) ;
#77 = DIRECTION ( 'NONE',  ( -1.000000000000000000, -0.000000000000000000, -0.000000000000000000 ) ) ;
#78 = AXIS2_PLACEMENT_3D ( 'NONE', #50, #27, #34 ) ;
#79 = VECTOR ( 'NONE', #77, 1000.000000000000000 ) ;
#80 = PLANE ( 'NONE',  #150 ) ;
#81 = CYLINDRICAL_SURFACE ( 'NONE', #295, 5.000000000000000888 ) ;
#82 = CARTESIAN_POINT ( 'NONE',  ( -3.000000000000000000, 6.123233995736766282E-16, -5.000000000000000000 ) ) ;
#83 = FACE_OUTER_BOUND ( 'NONE', #259, .T. ) ;
#84 = LINE ( 'NONE', #140, #79 ) ;
#85 = EDGE_CURVE ( 'NONE', #289, #217, #84, .T. ) ;
#86 = CARTESIAN_POINT ( 'NONE',  ( 1.250000000000000444, 6.123233995736766282E-16, -5.000000000000000000 ) ) ;
#87 = ADVANCED_FACE ( 'NONE', ( #7 ), #264, .F. ) ;
#88 = DATE_TIME_ROLE ( 'classification_date' ) ;
#89 = DIRECTION ( 'NONE',  ( 0.000000000000000000, 0.000000000000000000, 1.000000000000000000 ) ) ;
#90 = FACE_OUTER_BOUND ( 'NONE', #203, .T. ) ;
#91 = DATE_AND_TIME ( #18, #99 ) ;
#92 = DIRECTION ( 'NONE',  ( 1.000000000000000000, 0.000000000000000000, 0.000000000000000000 ) ) ;
#93 = COORDINATED_UNIVERSAL_TIME_OFFSET ( 8, 0, .AHEAD. ) ;
#94 = ORIENTED_EDGE ( 'NONE', *, *, #258, .F. ) ;
#95 = CC_DESIGN_DATE_AND_TIME_ASSIGNMENT ( #323, #88, ( #145 ) ) ;
#96 = CIRCLE ( 'NONE', #287, 12.69999999999999929 ) ;
#97 = PRODUCT_RELATED_PRODUCT_CATEGORY ( 'detail', '', ( #314 ) ) ;
#98 = EDGE_CURVE ( 'NONE', #100, #46, #174, .T. ) ;
#99 = LOCAL_TIME ( 9, 48, 21.00000000000000000, #147 ) ;
#100 = VERTEX_POINT ( 'NONE', #9 ) ;
#101 = VERTEX_POINT ( 'NONE', #190 ) ;
#102 = ORIENTED_EDGE ( 'NONE', *, *, #279, .T. ) ;
#103 = DIRECTION ( 'NONE',  ( 0.000000000000000000, 0.000000000000000000, 1.000000000000000000 ) ) ;
#104 = CLOSED_SHELL ( 'NONE', ( #205, #151, #87, #209, #278, #136, #114, #32, #234, #283 ) ) ;
#105 = ORIENTED_EDGE ( 'NONE', *, *, #98, .F. ) ;
#106 = DIRECTION ( 'NONE',  ( -1.000000000000000000, -0.000000000000000000, -0.000000000000000000 ) ) ;
#107 =( GEOMETRIC_REPRESENTATION_CONTEXT ( 3 ) GLOBAL_UNCERTAINTY_ASSIGNED_CONTEXT ( ( #139 ) ) GLOBAL_UNIT_ASSIGNED_CONTEXT ( ( #16, #171, #225 ) ) REPRESENTATION_CONTEXT ( 'NONE', 'WORKASPACE' ) );
#108 = CARTESIAN_POINT ( 'NONE',  ( -3.000000000000000000, 0.000000000000000000, 0.000000000000000000 ) ) ;
#109 = EDGE_CURVE ( 'NONE', #228, #178, #57, .T. ) ;
#110 = CARTESIAN_POINT ( 'NONE',  ( 3.000000000000000000, 0.000000000000000000, 0.000000000000000000 ) ) ;
#111 = DIRECTION ( 'NONE',  ( 0.000000000000000000, 0.000000000000000000, -1.000000000000000000 ) ) ;
#112 = DIRECTION ( 'NONE',  ( 0.000000000000000000, 0.000000000000000000, 1.000000000000000000 ) ) ;
#113 = AXIS2_PLACEMENT_3D ( 'NONE', #246, #239, #111 ) ;
#114 = ADVANCED_FACE ( 'NONE', ( #53, #292 ), #210, .F. ) ;
#115 = LINE ( 'NONE', #220, #71 ) ;
#116 = CIRCLE ( 'NONE', #202, 5.000000000000000000 ) ;
#117 = PRODUCT_DEFINITION_FORMATION_WITH_SPECIFIED_SOURCE ( 'ANY', '', #314, .NOT_KNOWN. ) ;
#118 = CALENDAR_DATE ( 2020, 24, 12 ) ;
#119 = DIRECTION ( 'NONE',  ( 0.000000000000000000, 0.000000000000000000, 1.000000000000000000 ) ) ;
#120 = CALENDAR_DATE ( 2020, 24, 12 ) ;
#121 = DIRECTION ( 'NONE',  ( -1.000000000000000000, -0.000000000000000000, -0.000000000000000000 ) ) ;
#122 = ORIENTED_EDGE ( 'NONE', *, *, #19, .T. ) ;
#123 = EDGE_LOOP ( 'NONE', ( #303, #175, #305, #102 ) ) ;
#124 = ORIENTED_EDGE ( 'NONE', *, *, #324, .T. ) ;
#125 = CIRCLE ( 'NONE', #318, 5.000000000000000888 ) ;
#126 = CC_DESIGN_APPROVAL ( #127, ( #145 ) ) ;
#127 = APPROVAL ( #300, 'UNSPECIFIED' ) ;
#128 = DIRECTION ( 'NONE',  ( -1.000000000000000000, -0.000000000000000000, -0.000000000000000000 ) ) ;
#129 = CARTESIAN_POINT ( 'NONE',  ( 3.000000000000000000, 12.69999999999999929, 0.000000000000000000 ) ) ;
#130 = ORIENTED_EDGE ( 'NONE', *, *, #324, .F. ) ;
#131 = EDGE_LOOP ( 'NONE', ( #49, #157, #72, #130 ) ) ;
#132 = DIRECTION ( 'NONE',  ( -1.000000000000000000, -0.000000000000000000, -0.000000000000000000 ) ) ;
#133 = FACE_OUTER_BOUND ( 'NONE', #23, .T. ) ;
#134 = CARTESIAN_POINT ( 'NONE',  ( 3.000000000000000000, 0.000000000000000000, 0.000000000000000000 ) ) ;
#135 = APPLICATION_CONTEXT ( 'configuration controlled 3d designs of mechanical parts and assemblies' ) ;
#136 = ADVANCED_FACE ( 'NONE', ( #133 ), #81, .F. ) ;
#137 = DIRECTION ( 'NONE',  ( -1.000000000000000000, -0.000000000000000000, -0.000000000000000000 ) ) ;
#138 = CC_DESIGN_DATE_AND_TIME_ASSIGNMENT ( #70, #64, ( #330 ) ) ;
#139 = UNCERTAINTY_MEASURE_WITH_UNIT (LENGTH_MEASURE( 1.000000000000000082E-05 ), #16, 'distance_accuracy_value', 'NONE');
#140 = CARTESIAN_POINT ( 'NONE',  ( -1.614212418857619014, 0.000000000000000000, 5.000000000000000888 ) ) ;
#141 = PRODUCT_DEFINITION_SHAPE ( 'NONE', 'NONE',  #330 ) ;
#142 = CARTESIAN_POINT ( 'NONE',  ( -1.614212418857619014, 0.000000000000000000, 5.000000000000000888 ) ) ;
#143 = PERSON_AND_ORGANIZATION ( #172, #199 ) ;
#144 = CARTESIAN_POINT ( 'NONE',  ( 3.000000000000000000, 0.000000000000000000, 0.000000000000000000 ) ) ;
#145 = SECURITY_CLASSIFICATION ( '', '', #251 ) ;
#146 = CALENDAR_DATE ( 2020, 24, 12 ) ;
#147 = COORDINATED_UNIVERSAL_TIME_OFFSET ( 8, 0, .AHEAD. ) ;
#148 = ADVANCED_BREP_SHAPE_REPRESENTATION ( 'QB-CTZQWP-10-1550-M', ( #179, #5 ), #107 ) ;
#149 = DIRECTION ( 'NONE',  ( 0.000000000000000000, 0.000000000000000000, 1.000000000000000000 ) ) ;
#150 = AXIS2_PLACEMENT_3D ( 'NONE', #162, #35, #54 ) ;
#151 = ADVANCED_FACE ( 'NONE', ( #83 ), #219, .F. ) ;
#152 = EDGE_CURVE ( 'NONE', #289, #281, #31, .T. ) ;
#153 = ORIENTED_EDGE ( 'NONE', *, *, #68, .T. ) ;
#154 = ORIENTED_EDGE ( 'NONE', *, *, #152, .T. ) ;
#155 = CIRCLE ( 'NONE', #12, 12.69999999999999929 ) ;
#156 = DIRECTION ( 'NONE',  ( -1.000000000000000000, -0.000000000000000000, -0.000000000000000000 ) ) ;
#157 = ORIENTED_EDGE ( 'NONE', *, *, #204, .T. ) ;
#158 = CARTESIAN_POINT ( 'NONE',  ( -3.000000000000000000, 5.000000000000000000, 0.000000000000000000 ) ) ;
#159 = CARTESIAN_POINT ( 'NONE',  ( 3.000000000000000000, 1.555301434917138433E-15, -12.69999999999999929 ) ) ;
#160 = FACE_OUTER_BOUND ( 'NONE', #326, .T. ) ;
#161 = ORIENTED_EDGE ( 'NONE', *, *, #257, .F. ) ;
#162 = CARTESIAN_POINT ( 'NONE',  ( 1.250000000000000222, 5.000000000000000000, 0.000000000000000000 ) ) ;
#163 = EDGE_CURVE ( 'NONE', #100, #178, #261, .T. ) ;
#164 = DIRECTION ( 'NONE',  ( -1.000000000000000000, -0.000000000000000000, -0.000000000000000000 ) ) ;
#165 = FACE_BOUND ( 'NONE', #26, .T. ) ;
#166 = APPLICATION_CONTEXT ( 'configuration controlled 3d designs of mechanical parts and assemblies' ) ;
#167 = APPROVAL_STATUS ( 'not_yet_approved' ) ;
#168 = DIRECTION ( 'NONE',  ( -1.000000000000000000, -0.000000000000000000, -0.000000000000000000 ) ) ;
#169 = LOCAL_TIME ( 9, 48, 21.00000000000000000, #224 ) ;
#170 = PERSON_AND_ORGANIZATION ( #172, #199 ) ;
#171 =( NAMED_UNIT ( * ) PLANE_ANGLE_UNIT ( ) SI_UNIT ( $, .RADIAN. ) );
#172 = PERSON ( 'UNSPECIFIED', 'UNSPECIFIED', 'UNSPECIFIED', ('UNSPECIFIED'), ('UNSPECIFIED'), ('UNSPECIFIED') ) ;
#173 = PERSON_AND_ORGANIZATION ( #172, #199 ) ;
#174 = CIRCLE ( 'NONE', #113, 5.000000000000000888 ) ;
#175 = ORIENTED_EDGE ( 'NONE', *, *, #152, .F. ) ;
#176 = VECTOR ( 'NONE', #248, 1000.000000000000000 ) ;
#177 = APPROVAL_PERSON_ORGANIZATION ( #249, #315, #200 ) ;
#178 = VERTEX_POINT ( 'NONE', #82 ) ;
#179 = MANIFOLD_SOLID_BREP ( 'Ðý×', #104 ) ;
#180 = EDGE_LOOP ( 'NONE', ( #21, #36, #299, #75 ) ) ;
#181 = DIRECTION ( 'NONE',  ( 0.000000000000000000, 0.000000000000000000, 1.000000000000000000 ) ) ;
#182 = AXIS2_PLACEMENT_3D ( 'NONE', #8, #242, #58 ) ;
#183 = EDGE_LOOP ( 'NONE', ( #153, #124 ) ) ;
#184 = DIRECTION ( 'NONE',  ( 0.000000000000000000, 0.000000000000000000, 1.000000000000000000 ) ) ;
#185 = CYLINDRICAL_SURFACE ( 'NONE', #301, 5.000000000000000888 ) ;
#186 = CYLINDRICAL_SURFACE ( 'NONE', #78, 12.69999999999999929 ) ;
#187 = DIRECTION ( 'NONE',  ( 0.000000000000000000, 0.000000000000000000, 1.000000000000000000 ) ) ;
#188 = CC_DESIGN_PERSON_AND_ORGANIZATION_ASSIGNMENT ( #143, #226, ( #117 ) ) ;
#189 = CARTESIAN_POINT ( 'NONE',  ( -1.614212418857619014, 0.000000000000000000, 0.000000000000000000 ) ) ;
#190 = CARTESIAN_POINT ( 'NONE',  ( -3.000000000000000000, 1.555301434917138433E-15, -12.69999999999999929 ) ) ;
#191 = CARTESIAN_POINT ( 'NONE',  ( -3.000000000000000000, 0.000000000000000000, 5.000000000000000000 ) ) ;
#192 = DIRECTION ( 'NONE',  ( -1.000000000000000000, -0.000000000000000000, -0.000000000000000000 ) ) ;
#193 = APPROVAL_DATE_TIME ( #255, #315 ) ;
#194 = DIRECTION ( 'NONE',  ( -1.000000000000000000, -0.000000000000000000, -0.000000000000000000 ) ) ;
#195 = CIRCLE ( 'NONE', #247, 5.000000000000000000 ) ;
#196 = AXIS2_PLACEMENT_3D ( 'NONE', #158, #213, #313 ) ;
#197 = EDGE_CURVE ( 'NONE', #230, #312, #265, .T. ) ;
#198 = APPROVAL_DATE_TIME ( #44, #29 ) ;
#199 = ORGANIZATION ( 'UNSPECIFIED', 'UNSPECIFIED', '' ) ;
#200 = APPROVAL_ROLE ( '' ) ;
#201 = APPLICATION_PROTOCOL_DEFINITION ( 'international standard', 'config_control_design', 1994, #135 ) ;
#202 = AXIS2_PLACEMENT_3D ( 'NONE', #227, #194, #15 ) ;
#203 = EDGE_LOOP ( 'NONE', ( #161, #105 ) ) ;
#204 = EDGE_CURVE ( 'NONE', #17, #230, #223, .T. ) ;
#205 = ADVANCED_FACE ( 'NONE', ( #311 ), #33, .T. ) ;
#206 = VERTEX_POINT ( 'NONE', #86 ) ;
#207 = ORIENTED_EDGE ( 'NONE', *, *, #109, .F. ) ;
#208 = EDGE_LOOP ( 'NONE', ( #329, #2, #235, #334 ) ) ;
#209 = ADVANCED_FACE ( 'NONE', ( #160 ), #80, .F. ) ;
#210 = PLANE ( 'NONE',  #196 ) ;
#211 = AXIS2_PLACEMENT_3D ( 'NONE', #30, #128, #184 ) ;
#212 = EDGE_LOOP ( 'NONE', ( #332, #48 ) ) ;
#213 = DIRECTION ( 'NONE',  ( 1.000000000000000000, 0.000000000000000000, 0.000000000000000000 ) ) ;
#214 = LOCAL_TIME ( 9, 48, 21.00000000000000000, #93 ) ;
#215 = DIRECTION ( 'NONE',  ( 0.000000000000000000, 0.000000000000000000, 1.000000000000000000 ) ) ;
#216 = DIRECTION ( 'NONE',  ( 0.000000000000000000, 0.000000000000000000, 1.000000000000000000 ) ) ;
#217 = VERTEX_POINT ( 'NONE', #3 ) ;
#218 = CIRCLE ( 'NONE', #240, 5.000000000000000000 ) ;
#219 = CYLINDRICAL_SURFACE ( 'NONE', #331, 5.000000000000000888 ) ;
#220 = CARTESIAN_POINT ( 'NONE',  ( -1.614212418857619014, 6.123233995736767268E-16, -5.000000000000000888 ) ) ;
#221 = PERSON_AND_ORGANIZATION ( #172, #199 ) ;
#222 = APPLICATION_PROTOCOL_DEFINITION ( 'international standard', 'config_control_design', 1994, #166 ) ;
#223 = CIRCLE ( 'NONE', #182, 12.69999999999999929 ) ;
#224 = COORDINATED_UNIVERSAL_TIME_OFFSET ( 8, 0, .AHEAD. ) ;
#225 =( NAMED_UNIT ( * ) SI_UNIT ( $, .STERADIAN. ) SOLID_ANGLE_UNIT ( ) );
#226 = PERSON_AND_ORGANIZATION_ROLE ( 'creator' ) ;
#227 = CARTESIAN_POINT ( 'NONE',  ( 1.250000000000000444, 0.000000000000000000, 0.000000000000000000 ) ) ;
#228 = VERTEX_POINT ( 'NONE', #191 ) ;
#229 = APPROVAL_DATE_TIME ( #91, #127 ) ;
#230 = VERTEX_POINT ( 'NONE', #10 ) ;
#231 = LOCAL_TIME ( 9, 48, 21.00000000000000000, #67 ) ;
#232 = EDGE_CURVE ( 'NONE', #281, #289, #253, .T. ) ;
#233 = ORIENTED_EDGE ( 'NONE', *, *, #109, .T. ) ;
#234 = ADVANCED_FACE ( 'NONE', ( #263, #165 ), #244, .F. ) ;
#235 = ORIENTED_EDGE ( 'NONE', *, *, #68, .F. ) ;
#236 = CARTESIAN_POINT ( 'NONE',  ( -1.250000000000000222, 0.000000000000000000, 5.000000000000000888 ) ) ;
#237 = CARTESIAN_POINT ( 'NONE',  ( -1.614212418857619014, 0.000000000000000000, 0.000000000000000000 ) ) ;
#238 = EDGE_LOOP ( 'NONE', ( #207, #282 ) ) ;
#239 = DIRECTION ( 'NONE',  ( 1.000000000000000000, 0.000000000000000000, 0.000000000000000000 ) ) ;
#240 = AXIS2_PLACEMENT_3D ( 'NONE', #335, #4, #268 ) ;
#241 = VECTOR ( 'NONE', #1, 1000.000000000000000 ) ;
#242 = DIRECTION ( 'NONE',  ( -1.000000000000000000, -0.000000000000000000, -0.000000000000000000 ) ) ;
#243 = CARTESIAN_POINT ( 'NONE',  ( -1.614212418857619014, 0.000000000000000000, 0.000000000000000000 ) ) ;
#244 = PLANE ( 'NONE',  #41 ) ;
#245 = DIRECTION ( 'NONE',  ( -1.000000000000000000, 0.000000000000000000, -0.000000000000000000 ) ) ;
#246 = CARTESIAN_POINT ( 'NONE',  ( -1.250000000000000222, 0.000000000000000000, 0.000000000000000000 ) ) ;
#247 = AXIS2_PLACEMENT_3D ( 'NONE', #290, #164, #56 ) ;
#248 = DIRECTION ( 'NONE',  ( -1.000000000000000000, -0.000000000000000000, -0.000000000000000000 ) ) ;
#249 = PERSON_AND_ORGANIZATION ( #172, #199 ) ;
#250 = AXIS2_PLACEMENT_3D ( 'NONE', #321, #14, #43 ) ;
#251 = SECURITY_CLASSIFICATION_LEVEL ( 'unclassified' ) ;
#252 = COORDINATED_UNIVERSAL_TIME_OFFSET ( 8, 0, .AHEAD. ) ;
#253 = CIRCLE ( 'NONE', #266, 5.000000000000001776 ) ;
#254 = CARTESIAN_POINT ( 'NONE',  ( 0.000000000000000000, 0.000000000000000000, 0.000000000000000000 ) ) ;
#255 = DATE_AND_TIME ( #146, #296 ) ;
#256 = ORIENTED_EDGE ( 'NONE', *, *, #98, .T. ) ;
#257 = EDGE_CURVE ( 'NONE', #46, #100, #125, .T. ) ;
#258 = EDGE_CURVE ( 'NONE', #46, #228, #37, .T. ) ;
#259 = EDGE_LOOP ( 'NONE', ( #308, #285, #122, #94 ) ) ;
#260 = FACE_OUTER_BOUND ( 'NONE', #131, .T. ) ;
#261 = LINE ( 'NONE', #25, #294 ) ;
#262 = DESIGN_CONTEXT ( 'detailed design', #135, 'design' ) ;
#263 = FACE_OUTER_BOUND ( 'NONE', #212, .T. ) ;
#264 = CYLINDRICAL_SURFACE ( 'NONE', #211, 5.000000000000000888 ) ;
#265 = LINE ( 'NONE', #291, #241 ) ;
#266 = AXIS2_PLACEMENT_3D ( 'NONE', #134, #6, #267 ) ;
#267 = DIRECTION ( 'NONE',  ( 0.000000000000000000, 0.000000000000000000, 1.000000000000000000 ) ) ;
#268 = DIRECTION ( 'NONE',  ( 0.000000000000000000, 0.000000000000000000, 1.000000000000000000 ) ) ;
#269 = DIRECTION ( 'NONE',  ( 1.000000000000000000, 0.000000000000000000, 0.000000000000000000 ) ) ;
#270 = APPROVAL_ROLE ( '' ) ;
#271 = EDGE_CURVE ( 'NONE', #281, #206, #115, .T. ) ;
#272 = CIRCLE ( 'NONE', #284, 12.69999999999999929 ) ;
#273 = CARTESIAN_POINT ( 'NONE',  ( 3.000000000000000000, 0.000000000000000000, 5.000000000000001776 ) ) ;
#274 = AXIS2_PLACEMENT_3D ( 'NONE', #237, #55, #112 ) ;
#275 = PERSON_AND_ORGANIZATION_ROLE ( 'design_owner' ) ;
#276 = DIRECTION ( 'NONE',  ( -1.000000000000000000, -0.000000000000000000, -0.000000000000000000 ) ) ;
#277 = ORIENTED_EDGE ( 'NONE', *, *, #232, .T. ) ;
#278 = ADVANCED_FACE ( 'NONE', ( #52 ), #185, .F. ) ;
#279 = EDGE_CURVE ( 'NONE', #217, #206, #116, .T. ) ;
#280 = CC_DESIGN_PERSON_AND_ORGANIZATION_ASSIGNMENT ( #66, #275, ( #314 ) ) ;
#281 = VERTEX_POINT ( 'NONE', #42 ) ;
#282 = ORIENTED_EDGE ( 'NONE', *, *, #19, .F. ) ;
#283 = ADVANCED_FACE ( 'NONE', ( #90 ), #298, .F. ) ;
#284 = AXIS2_PLACEMENT_3D ( 'NONE', #108, #137, #216 ) ;
#285 = ORIENTED_EDGE ( 'NONE', *, *, #163, .T. ) ;
#286 = CARTESIAN_POINT ( 'NONE',  ( -3.000000000000000000, 0.000000000000000000, 0.000000000000000000 ) ) ;
#287 = AXIS2_PLACEMENT_3D ( 'NONE', #63, #168, #89 ) ;
#288 = CARTESIAN_POINT ( 'NONE',  ( -1.614212418857619014, 0.000000000000000000, 0.000000000000000000 ) ) ;
#289 = VERTEX_POINT ( 'NONE', #273 ) ;
#290 = CARTESIAN_POINT ( 'NONE',  ( -3.000000000000000000, 0.000000000000000000, 0.000000000000000000 ) ) ;
#291 = CARTESIAN_POINT ( 'NONE',  ( -1.614212418857619014, 0.000000000000000000, 12.69999999999999929 ) ) ;
#292 = FACE_OUTER_BOUND ( 'NONE', #183, .T. ) ;
#293 = DIRECTION ( 'NONE',  ( -0.000000000000000000, 0.000000000000000000, 1.000000000000000000 ) ) ;
#294 = VECTOR ( 'NONE', #132, 1000.000000000000000 ) ;
#295 = AXIS2_PLACEMENT_3D ( 'NONE', #243, #156, #187 ) ;
#296 = LOCAL_TIME ( 9, 48, 21.00000000000000000, #252 ) ;
#297 = PERSON_AND_ORGANIZATION_ROLE ( 'classification_officer' ) ;
#298 = PLANE ( 'NONE',  #250 ) ;
#299 = ORIENTED_EDGE ( 'NONE', *, *, #51, .T. ) ;
#300 = APPROVAL_STATUS ( 'not_yet_approved' ) ;
#301 = AXIS2_PLACEMENT_3D ( 'NONE', #288, #276, #149 ) ;
#302 = CC_DESIGN_APPROVAL ( #315, ( #117 ) ) ;
#303 = ORIENTED_EDGE ( 'NONE', *, *, #271, .F. ) ;
#304 = CC_DESIGN_PERSON_AND_ORGANIZATION_ASSIGNMENT ( #170, #297, ( #145 ) ) ;
#305 = ORIENTED_EDGE ( 'NONE', *, *, #85, .T. ) ;
#306 = ORIENTED_EDGE ( 'NONE', *, *, #279, .F. ) ;
#307 = LINE ( 'NONE', #309, #20 ) ;
#308 = ORIENTED_EDGE ( 'NONE', *, *, #257, .T. ) ;
#309 = CARTESIAN_POINT ( 'NONE',  ( -1.614212418857619014, 1.555301434917138433E-15, -12.69999999999999929 ) ) ;
#310 = AXIS2_PLACEMENT_3D ( 'NONE', #110, #317, #215 ) ;
#311 = FACE_OUTER_BOUND ( 'NONE', #208, .T. ) ;
#312 = VERTEX_POINT ( 'NONE', #39 ) ;
#313 = DIRECTION ( 'NONE',  ( 0.000000000000000000, 0.000000000000000000, -1.000000000000000000 ) ) ;
#314 = PRODUCT ( 'QB-CTZQWP-10-1550-M', 'QB-CTZQWP-10-1550-M', '', ( #61 ) ) ;
#315 = APPROVAL ( #320, 'UNSPECIFIED' ) ;
#316 = EDGE_CURVE ( 'NONE', #230, #17, #155, .T. ) ;
#317 = DIRECTION ( 'NONE',  ( -1.000000000000000000, -0.000000000000000000, -0.000000000000000000 ) ) ;
#318 = AXIS2_PLACEMENT_3D ( 'NONE', #60, #269, #319 ) ;
#319 = DIRECTION ( 'NONE',  ( 0.000000000000000000, 0.000000000000000000, -1.000000000000000000 ) ) ;
#320 = APPROVAL_STATUS ( 'not_yet_approved' ) ;
#321 = CARTESIAN_POINT ( 'NONE',  ( -1.250000000000000222, 5.000000000000000000, 0.000000000000000000 ) ) ;
#322 = PERSON_AND_ORGANIZATION ( #172, #199 ) ;
#323 = DATE_AND_TIME ( #118, #169 ) ;
#324 = EDGE_CURVE ( 'NONE', #101, #312, #96, .T. ) ;
#325 = PERSON_AND_ORGANIZATION ( #172, #199 ) ;
#326 = EDGE_LOOP ( 'NONE', ( #306, #69 ) ) ;
#327 = SHAPE_DEFINITION_REPRESENTATION ( #141, #148 ) ;
#328 = AXIS2_PLACEMENT_3D ( 'NONE', #286, #106, #181 ) ;
#329 = ORIENTED_EDGE ( 'NONE', *, *, #316, .T. ) ;
#330 = PRODUCT_DEFINITION ( 'UNKNOWN', '', #117, #262 ) ;
#331 = AXIS2_PLACEMENT_3D ( 'NONE', #189, #28, #103 ) ;
#332 = ORIENTED_EDGE ( 'NONE', *, *, #316, .F. ) ;
#333 = APPROVAL_PERSON_ORGANIZATION ( #322, #127, #62 ) ;
#334 = ORIENTED_EDGE ( 'NONE', *, *, #197, .F. ) ;
#335 = CARTESIAN_POINT ( 'NONE',  ( 1.250000000000000444, 0.000000000000000000, 0.000000000000000000 ) ) ;
ENDSEC;
END-ISO-10303-21;
